  0
SECTION
  2
HEADER
  9
$ACADVER
  1
AC1009
  9
$INSBASE
 10
0.0
 20
0.0
 30
0.0
  9
$EXTMIN
 10
10.0
 20
2.3913074734375361
 30
0.0
  9
$EXTMAX
 10
190.0
 20
270.0
 30
0.0
  9
$LIMMIN
 10
0.0
 20
0.0
  9
$LIMMAX
 10
0.0
 20
0.0
  9
$ORTHOMODE
 70
     0
  9
$REGENMODE
 70
     1
  9
$FILLMODE
 70
     1
  9
$QTEXTMODE
 70
     0
  9
$MIRRTEXT
 70
     1
  9
$DRAGMODE
 70
     2
  9
$LTSCALE
 40
5.0800000000000001
  9
$OSMODE
 70
   231
  9
$ATTMODE
 70
     1
  9
$TEXTSIZE
 40
0.0
  9
$TRACEWID
 40
1.0
  9
$TEXTSTYLE
  7
STANDARD
  9
$CLAYER
  8
DATA
  9
$CELTYPE
  6
BYLAYER
  9
$CECOLOR
 62
   256
  9
$DIMSCALE
 40
1.0
  9
$DIMASZ
 40
0.18
  9
$DIMEXO
 40
0.0625
  9
$DIMDLI
 40
0.38
  9
$DIMRND
 40
0.0
  9
$DIMDLE
 40
0.0
  9
$DIMEXE
 40
0.18
  9
$DIMTP
 40
0.0
  9
$DIMTM
 40
0.0
  9
$DIMTXT
 40
0.18
  9
$DIMCEN
 40
0.09
  9
$DIMTSZ
 40
0.0
  9
$DIMTOL
 70
     0
  9
$DIMLIM
 70
     0
  9
$DIMTIH
 70
     1
  9
$DIMTOH
 70
     1
  9
$DIMSE1
 70
     0
  9
$DIMSE2
 70
     0
  9
$DIMTAD
 70
     0
  9
$DIMZIN
 70
     0
  9
$DIMBLK
  1

  9
$DIMASO
 70
     1
  9
$DIMSHO
 70
     1
  9
$DIMPOST
  1

  9
$DIMAPOST
  1

  9
$DIMALT
 70
     0
  9
$DIMALTD
 70
     2
  9
$DIMALTF
 40
25.399999999999999
  9
$DIMLFAC
 40
1.0
  9
$DIMTOFL
 70
     0
  9
$DIMTVP
 40
0.0
  9
$DIMTIX
 70
     0
  9
$DIMSOXD
 70
     0
  9
$DIMSAH
 70
     0
  9
$DIMBLK1
  1

  9
$DIMBLK2
  1

  9
$DIMSTYLE
  2
STANDARD
  9
$DIMCLRD
 70
     0
  9
$DIMCLRE
 70
     0
  9
$DIMCLRT
 70
     0
  9
$DIMTFAC
 40
1.0
  9
$DIMGAP
 40
0.09
  9
$LUNITS
 70
     2
  9
$LUPREC
 70
     4
  9
$SKETCHINC
 40
0.1
  9
$FILLETRAD
 40
0.0
  9
$AUNITS
 70
     0
  9
$AUPREC
 70
     0
  9
$MENU
  1
acad
  9
$ELEVATION
 40
0.0
  9
$PELEVATION
 40
0.0
  9
$THICKNESS
 40
0.0
  9
$LIMCHECK
 70
     0
  9
$BLIPMODE
 70
     0
  9
$CHAMFERA
 40
0.0
  9
$CHAMFERB
 40
0.0
  9
$SKPOLY
 70
     0
  9
$TDCREATE
 40
2455418.5597800929
  9
$TDUPDATE
 40
2455418.577731621
  9
$TDINDWG
 40
0.0009262731
  9
$TDUSRTIMER
 40
0.000924838
  9
$USRTIMER
 70
     1
  9
$ANGBASE
 50
0.0
  9
$ANGDIR
 70
     0
  9
$PDMODE
 70
     1
  9
$PDSIZE
 40
-2.0
  9
$PLINEWID
 40
0.0
  9
$COORDS
 70
     0
  9
$SPLFRAME
 70
     0
  9
$SPLINETYPE
 70
     6
  9
$SPLINESEGS
 70
     8
  9
$ATTDIA
 70
     0
  9
$ATTREQ
 70
     1
  9
$HANDLING
 70
     1
  9
$HANDSEED
  5
2EF
  9
$SURFTAB1
 70
     6
  9
$SURFTAB2
 70
     6
  9
$SURFTYPE
 70
     6
  9
$SURFU
 70
     6
  9
$SURFV
 70
     6
  9
$UCSNAME
  2

  9
$UCSORG
 10
0.0
 20
0.0
 30
0.0
  9
$UCSXDIR
 10
1.0
 20
0.0
 30
0.0
  9
$UCSYDIR
 10
0.0
 20
1.0
 30
0.0
  9
$PUCSNAME
  2

  9
$PUCSORG
 10
0.0
 20
0.0
 30
0.0
  9
$PUCSXDIR
 10
1.0
 20
0.0
 30
0.0
  9
$PUCSYDIR
 10
0.0
 20
1.0
 30
0.0
  9
$USERI1
 70
     0
  9
$USERI2
 70
     0
  9
$USERI3
 70
     0
  9
$USERI4
 70
     0
  9
$USERI5
 70
     0
  9
$USERR1
 40
0.0
  9
$USERR2
 40
0.0
  9
$USERR3
 40
0.0
  9
$USERR4
 40
0.0
  9
$USERR5
 40
0.0
  9
$WORLDVIEW
 70
     1
  9
$SHADEDGE
 70
     3
  9
$SHADEDIF
 70
    70
  9
$TILEMODE
 70
     1
  9
$MAXACTVP
 70
    64
  9
$PLIMCHECK
 70
     0
  9
$PEXTMIN
 10
1.0000000000000000E+020
 20
1.0000000000000000E+020
 30
1.0000000000000000E+020
  9
$PEXTMAX
 10
-1.0000000000000000E+020
 20
-1.0000000000000000E+020
 30
-1.0000000000000000E+020
  9
$PLIMMIN
 10
0.0
 20
0.0
  9
$PLIMMAX
 10
12.0
 20
9.0
  9
$UNITMODE
 70
     0
  9
$VISRETAIN
 70
     0
  9
$PLINEGEN
 70
     1
  9
$PSLTSCALE
 70
     0
  0
ENDSEC
  0
SECTION
  2
TABLES
  0
TABLE
  2
VPORT
 70
     1
  0
VPORT
  2
*ACTIVE
 70
     0
 10
0.0
 20
0.0
 11
1.0
 21
1.0
 12
100.0010685634347
 22
146.46197953831361
 13
0.0
 23
0.0
 14
1.0
 24
1.0
 15
0.0
 25
0.0
 16
0.0
 26
0.0
 36
1.0
 17
0.0
 27
0.0
 37
0.0
 40
269.62062730284538
 41
1.9619164619164611
 42
50.0
 43
0.0
 44
0.0
 50
0.0
 51
0.0
 71
     0
 72
  2000
 73
     1
 74
     1
 75
     0
 76
     0
 77
     0
 78
     0
  0
ENDTAB
  0
TABLE
  2
LTYPE
 70
     2
  0
LTYPE
  2
CONTINUOUS
 70
     0
  3
Solid line
 72
    65
 73
     0
 40
0.0
  0
LTYPE
  2
STYLE_01
 70
     0
  3

 72
    65
 73
     2
 40
0.4166412353515625
 49
0.208282470703125
 49
-0.2083587646484375
  0
ENDTAB
  0
TABLE
  2
LAYER
 70
     5
  0
LAYER
  2
0
 70
     0
 62
     7
  6
CONTINUOUS
  0
LAYER
  2
DATA
 70
     0
 62
     7
  6
CONTINUOUS
  0
LAYER
  2
HIBINO-BASE
 70
     0
 62
     7
  6
CONTINUOUS
  0
LAYER
  2
SPEC
 70
     0
 62
     7
  6
CONTINUOUS
  0
LAYER
  2
DIMNSIONS
 70
     0
 62
     7
  6
CONTINUOUS
  0
ENDTAB
  0
TABLE
  2
STYLE
 70
     2
  0
STYLE
  2
STANDARD
 70
     0
 40
0.0
 41
1.0
 50
0.0
 71
     0
 42
0.0
  3
txt
  4
BIGFONT.SHX
  0
ENDTAB
  0
TABLE
  2
VIEW
 70
     0
  0
ENDTAB
  0
TABLE
  2
UCS
 70
     0
  0
ENDTAB
  0
TABLE
  2
APPID
 70
     3
  0
APPID
  2
ACAD
 70
     0
  0
APPID
  2
ACADANNOTATIVE
 70
     0
  0
APPID
  2
ACAD_MLEADERVER
 70
     0
  0
ENDTAB
  0
TABLE
  2
DIMSTYLE
 70
     2
  0
DIMSTYLE
  2
STANDARD
 70
     0
  3

  4

  5

  6

  7

 40
1.0
 41
0.18
 42
0.0625
 43
0.38
 44
0.18
 45
0.0
 46
0.0
 47
0.0
 48
0.0
140
0.18
141
0.09
142
0.0
143
25.399999999999999
144
1.0
145
0.0
146
1.0
147
0.09
 71
     0
 72
     0
 73
     1
 74
     1
 75
     0
 76
     0
 77
     0
 78
     0
170
     0
171
     2
172
     0
173
     0
174
     0
175
     0
176
     0
177
     0
178
     0
  0
ENDTAB
  0
ENDSEC
  0
SECTION
  2
BLOCKS
  0
BLOCK
  8
0
  2
$MODEL_SPACE
 70
     0
 10
0.0
 20
0.0
 30
0.0
  3
$MODEL_SPACE
  1

  0
ENDBLK
  5
27E
  8
0
  0
BLOCK
 67
     1
  8
0
  2
$PAPER_SPACE
 70
     0
 10
0.0
 20
0.0
 30
0.0
  3
$PAPER_SPACE
  1

  0
ENDBLK
  5
27A
 67
     1
  8
0
  0
ENDSEC
  0
SECTION
  2
ENTITIES
  0
LINE
  5
2D
  8
HIBINO-BASE
  6
CONTINUOUS
 62
     7
 10
10.0
 20
270.0
 30
0.0
 11
190.0
 21
270.0
 31
0.0
  0
LINE
  5
2E
  8
HIBINO-BASE
  6
CONTINUOUS
 62
     7
 10
190.0
 20
10.0
 30
0.0
 11
10.0
 21
10.0
 31
0.0
  0
LINE
  5
2F
  8
HIBINO-BASE
  6
CONTINUOUS
 62
     7
 10
10.0
 20
10.0
 30
0.0
 11
10.0
 21
270.0
 31
0.0
  0
TEXT
  5
30
  8
HIBINO-BASE
 62
     7
 10
17.18399999999999
 20
3.5913222000000351
 30
0.0
 40
3.6000441796875
  1
Hibino Corporation
 41
0.7
 11
17.18399999999999
 21
7.191366379687536
 31
0.0
 73
     3
  0
LINE
  5
31
  8
HIBINO-BASE
  6
CONTINUOUS
 62
     7
 10
190.0
 20
270.0
 30
0.0
 11
190.0
 21
10.0
 31
0.0
  0
LINE
  5
32
  8
HIBINO-BASE
  6
CONTINUOUS
 62
     7
 10
100.0
 20
32.500000000000007
 30
0.0
 11
190.0
 21
32.500000000000007
 31
0.0
  0
LINE
  5
33
  8
HIBINO-BASE
  6
CONTINUOUS
 62
     7
 10
100.0
 20
10.0
 30
0.0
 11
100.0
 21
32.500000000000007
 31
0.0
  0
TEXT
  5
34
  8
HIBINO-BASE
 62
     7
 10
100.90000000000001
 20
29.991306666666681
 30
0.0
 40
1.6288411458333321
  1
NOTE
 41
0.7
 11
100.90000000000001
 21
31.620147812500011
 31
0.0
 73
     3
  0
LINE
  5
35
  8
HIBINO-BASE
  6
CONTINUOUS
 62
     7
 10
135.0
 20
10.0
 30
0.0
 11
135.0
 21
32.500000000000007
 31
0.0
  0
TEXT
  5
36
  8
HIBINO-BASE
 62
     7
 10
135.89999999999981
 20
29.991306666666681
 30
0.0
 40
1.6288411458333321
  1
TITLE
 41
0.7
 11
135.89999999999981
 21
31.620147812500011
 31
0.0
 73
     3
  0
TEXT
  5
37
  8
HIBINO-BASE
 62
     7
 10
150.06838999999991
 20
3.5913222000000351
 30
0.0
 40
3.6000441796875
  1
ヒビノ株式会社
 41
0.7
 11
150.06838999999991
 21
7.191366379687536
 31
0.0
 73
     3
  0
LINE
  5
38
  8
HIBINO-BASE
  6
CONTINUOUS
 62
     7
 10
100.0
 20
20.000000000000011
 30
0.0
 11
190.0
 21
20.000000000000011
 31
0.0
  0
TEXT
  5
39
  8
HIBINO-BASE
 62
     7
 10
148.39999999999981
 20
17.54762666666667
 30
0.0
 40
1.6288411458333321
  1
DRAWN
 41
0.7
 11
148.39999999999981
 21
19.176467812500011
 31
0.0
 73
     3
  0
TEXT
  5
3A
  8
HIBINO-BASE
 62
     7
 10
123.39999999999991
 20
17.54762666666667
 30
0.0
 40
1.6288411458333321
  1
DATE
 41
0.7
 11
123.39999999999991
 21
19.176467812500011
 31
0.0
 73
     3
  0
TEXT
  5
3B
  8
HIBINO-BASE
 62
     7
 10
113.40000000000001
 20
17.54762666666667
 30
0.0
 40
1.6288411458333321
  1
SCALE
 41
0.7
 11
113.40000000000001
 21
19.176467812500011
 31
0.0
 73
     3
  0
TEXT
  5
3C
  8
HIBINO-BASE
 62
     7
 10
135.89999999999981
 20
17.54762666666667
 30
0.0
 40
1.6288411458333321
  1
DESIGN
 41
0.7
 11
135.89999999999981
 21
19.176467812500011
 31
0.0
 73
     3
  0
TEXT
  5
3D
  8
HIBINO-BASE
 62
     7
 10
173.39999999999989
 20
17.54762666666667
 30
0.0
 40
1.6288411458333321
  1
DRAWING NO.
 41
0.7
 11
173.39999999999989
 21
19.176467812500011
 31
0.0
 73
     3
  0
TEXT
  5
3E
  8
HIBINO-BASE
 62
     7
 10
160.89999999999981
 20
17.54762666666667
 30
0.0
 40
1.6288411458333321
  1
CHECK
 41
0.7
 11
160.89999999999981
 21
19.176467812500011
 31
0.0
 73
     3
  0
LINE
  5
3F
  8
HIBINO-BASE
  6
CONTINUOUS
 62
     7
 10
114.375
 20
11.25
 30
0.0
 11
118.125
 21
15.000000000000011
 31
0.0
  0
TEXT
  5
40
  8
HIBINO-BASE
 62
     7
 10
113.75
 20
13.891056666666669
 30
0.0
 40
1.6288411458333321
  1
1
 41
0.7
 11
113.75
 21
15.5198978125
 31
0.0
 73
     3
  0
LINE
  5
41
  8
HIBINO-BASE
  6
CONTINUOUS
 62
     7
 10
112.5
 20
10.0
 30
0.0
 11
112.5
 21
20.000000000000011
 31
0.0
  0
LINE
  5
42
  8
HIBINO-BASE
  6
CONTINUOUS
 62
     7
 10
122.5
 20
10.0
 30
0.0
 11
122.5
 21
20.000000000000011
 31
0.0
  0
LINE
  5
43
  8
HIBINO-BASE
  6
CONTINUOUS
 62
     7
 10
147.4999999999998
 20
20.000000000000011
 30
0.0
 11
147.4999999999998
 21
10.0
 31
0.0
  0
LINE
  5
44
  8
HIBINO-BASE
  6
CONTINUOUS
 62
     7
 10
172.5
 20
20.000000000000011
 30
0.0
 11
172.5
 21
10.0
 31
0.0
  0
LINE
  5
45
  8
HIBINO-BASE
  6
CONTINUOUS
 62
     7
 10
159.9999999999998
 20
10.0
 30
0.0
 11
159.9999999999998
 21
20.000000000000011
 31
0.0
  0
TEXT
  5
46
  8
HIBINO-BASE
 62
     7
 10
123.35654
 20
12.86364666666667
 30
0.0
 40
1.6288411458333321
  1
'10.08.
 41
0.7
 11
123.35654
 21
14.4924878125
 31
0.0
 73
     3
  0
TEXT
  5
47
  8
HIBINO-BASE
 62
     7
 10
117.5
 20
12.016056666666669
 30
0.0
 40
1.6288411458333321
  1
1
 41
0.7
 11
117.5
 21
13.6448978125
 31
0.0
 73
     3
  0
TEXT
  5
48
  8
HIBINO-BASE
 62
     7
 10
149.00581001103461
 20
12.86364666666667
 30
0.0
 40
1.6288411458333321
  1
N.Sasaki
 41
0.7
 11
149.00581001103461
 21
14.4924878125
 31
0.0
 73
     3
  0
TEXT
  5
49
  8
HIBINO-BASE
 62
     7
 10
103.8833333333333
 20
11.97600000000001
 30
0.0
 40
3.257682291666665
  1
A4
 41
0.7
 11
103.8833333333333
 21
15.23368229166668
 31
0.0
 73
     3
  0
TEXT
  5
4A
  8
HIBINO-BASE
 62
     7
 10
100.9583333333333
 20
17.380545000000001
 30
0.0
 40
1.6288411458333321
  1
PAPER SIZE
 41
0.7
 11
100.9583333333333
 21
19.009386145833329
 31
0.0
 73
     3
  0
LINE
  5
4B
  8
SPEC
  6
CONTINUOUS
 62
     7
 10
17.5
 20
260.0
 30
0.0
 11
165.0
 21
260.0
 31
0.0
  0
LINE
  5
4C
  8
SPEC
  6
CONTINUOUS
 62
     7
 10
17.5
 20
256.25
 30
0.0
 11
165.0
 21
256.25
 31
0.0
  0
LINE
  5
4D
  8
SPEC
  6
CONTINUOUS
 62
     7
 10
17.5
 20
241.25
 30
0.0
 11
165.0
 21
241.25
 31
0.0
  0
LINE
  5
4E
  8
SPEC
  6
CONTINUOUS
 62
     7
 10
17.5
 20
245.0
 30
0.0
 11
165.0
 21
245.0
 31
0.0
  0
LINE
  5
4F
  8
SPEC
  6
CONTINUOUS
 62
     7
 10
17.5
 20
248.75
 30
0.0
 11
165.0
 21
248.75
 31
0.0
  0
LINE
  5
50
  8
SPEC
  6
CONTINUOUS
 62
     7
 10
17.5
 20
237.5
 30
0.0
 11
165.0
 21
237.5
 31
0.0
  0
LINE
  5
51
  8
SPEC
  6
CONTINUOUS
 62
     7
 10
17.5
 20
233.75
 30
0.0
 11
165.0
 21
233.75
 31
0.0
  0
LINE
  5
52
  8
SPEC
  6
CONTINUOUS
 62
     7
 10
17.5
 20
252.5
 30
0.0
 11
165.0
 21
252.5
 31
0.0
  0
LINE
  5
53
  8
SPEC
  6
CONTINUOUS
 62
     7
 10
17.5
 20
260.0
 30
0.0
 11
17.5
 21
207.5
 31
0.0
  0
TEXT
  5
54
  8
SPEC
 62
     7
 10
18.75
 20
261.39326999999997
 30
0.0
 40
2.4432617187500001
  1
仕様
 41
0.7
 11
18.75
 21
263.83653171875
 31
0.0
 73
     3
  0
LINE
  5
55
  8
SPEC
  6
CONTINUOUS
 62
     7
 10
50.0
 20
260.0
 30
0.0
 11
50.0
 21
207.5
 31
0.0
  0
LINE
  5
56
  8
SPEC
  6
CONTINUOUS
 62
     7
 10
165.0
 20
260.0
 30
0.0
 11
165.0
 21
207.5
 31
0.0
  0
TEXT
  5
57
  8
SPEC
 62
     7
 10
18.331648426145449
 20
257.16788454489199
 30
0.0
 40
1.900314670138888
  1
形式
 41
0.7
 11
18.331648426145449
 21
259.06819921503092
 31
0.0
 73
     3
  0
TEXT
  5
58
  8
SPEC
 62
     7
 10
18.28805575480775
 20
216.06510295450559
 30
0.0
 40
1.900314670138888
  1
寸法
 41
0.7
 11
18.28805575480775
 21
217.96541762464449
 31
0.0
 73
     3
  0
TEXT
  5
59
  8
SPEC
 62
     7
 10
50.61404330889458
 20
215.92604941306061
 30
0.0
 40
1.900314670138888
  1
\U+03A67.5\U+00D715mm(ケーブル、コネクター含まず)
 41
0.7
 11
50.61404330889458
 21
217.82636408319951
 31
0.0
 73
     3
  0
TEXT
  5
5A
  8
SPEC
 62
     7
 10
50.861658062741739
 20
212.1371711972761
 30
0.0
 40
1.900314670138888
  1
約18g
 41
0.7
 11
50.861658062741739
 21
214.037485867415
 31
0.0
 73
     3
  0
TEXT
  5
5B
  8
SPEC
 62
     7
 10
18.34124666771655
 20
212.19023251610761
 30
0.0
 40
1.900314670138888
  1
重量
 41
0.7
 11
18.34124666771655
 21
214.09054718624651
 31
0.0
 73
     3
  0
TEXT
  5
5C
  8
SPEC
 62
     7
 10
50.61124278953838
 20
257.22259185705963
 30
0.0
 40
1.900314670138888
  1
コンデンサー型 
 41
0.7
 11
50.61124278953838
 21
259.12290652719838
 31
0.0
 73
     3
  0
TEXT
  5
5D
  8
SPEC
 62
     7
 10
50.697665343413817
 20
208.48891930872881
 30
0.0
 40
1.900314670138888
  1
タイクリップ(H40/1)、タ イピン(H41)、ウインドスクリーン(W407)、マイクポーチ 
 41
0.7
 11
50.697665343413817
 21
210.38923397886771
 31
0.0
 73
     3
  0
TEXT
  5
5E
  8
SPEC
 62
     7
 10
18.375398867705421
 20
249.66619160369359
 30
0.0
 40
1.900314670138888
  1
周波数特性
 41
0.7
 11
18.375398867705421
 21
251.56650627383249
 31
0.0
 73
     3
  0
TEXT
  5
5F
  8
SPEC
 62
     7
 10
50.89367977818064
 20
249.67519212566631
 30
0.0
 40
1.900314670138888
  1
20Hz～20kHz
 41
0.7
 11
50.89367977818064
 21
251.57550679580521
 31
0.0
 73
     3
  0
TEXT
  5
60
  8
SPEC
 62
     7
 10
18.275744703327629
 20
245.9436666642498
 30
0.0
 40
1.900314670138888
  1
開回路感度
 41
0.7
 11
18.275744703327629
 21
247.8439813343887
 31
0.0
 73
     3
  0
TEXT
  5
61
  8
SPEC
 62
     7
 10
50.934791993338941
 20
246.0159312962021
 30
0.0
 40
1.900314670138888
  1
-35dBV re 1V/Pa
 41
0.7
 11
50.934791993338941
 21
247.91624596634099
 31
0.0
 73
     3
  0
TEXT
  5
62
  8
SPEC
 62
     7
 10
18.386843158626
 20
242.20885127257591
 30
0.0
 40
1.900314670138888
  1
最大音圧レベル
 41
0.7
 11
18.386843158626
 21
244.10916594271481
 31
0.0
 73
     3
  0
TEXT
  5
63
  8
SPEC
 62
     7
 10
50.76406087497719
 20
242.18438787539569
 30
0.0
 40
1.900314670138888
  1
126dB SPL（THD 3%%%）
 41
0.7
 11
50.76406087497719
 21
244.08470254553461
 31
0.0
 73
     3
  0
TEXT
  5
64
  8
SPEC
 62
     7
 10
18.36861017877257
 20
238.4068976756472
 30
0.0
 40
1.900314670138888
  1
等価雑音レベル
 41
0.7
 11
18.36861017877257
 21
240.3072123457861
 31
0.0
 73
     3
  0
TEXT
  5
65
  8
SPEC
 62
     7
 10
50.883417625447883
 20
238.41514616509971
 30
0.0
 40
1.900314670138888
  1
34dB SPL（Aウェイト）
 41
0.7
 11
50.883417625447883
 21
240.31546083523861
 31
0.0
 73
     3
  0
TEXT
  5
66
  8
SPEC
 62
     7
 10
18.391238969058229
 20
208.5557001468373
 30
0.0
 40
1.900314670138888
  1
付属品
 41
0.7
 11
18.391238969058229
 21
210.45601481697619
 31
0.0
 73
     3
  0
TEXT
  5
67
  8
SPEC
 62
     7
 10
18.26789472604862
 20
234.70779515389901
 30
0.0
 40
1.900314670138888
  1
インピーダンス
 41
0.7
 11
18.26789472604862
 21
236.60810982403791
 31
0.0
 73
     3
  0
TEXT
  5
68
  8
SPEC
 62
     7
 10
50.903410813163823
 20
234.66514616509971
 30
0.0
 40
1.900314670138888
  1
200\U+03A9以下
 41
0.7
 11
50.903410813163823
 21
236.56546083523861
 31
0.0
 73
     3
  0
TEXT
  5
69
  8
SPEC
 62
     7
 10
18.306390422084039
 20
230.9344166622985
 30
0.0
 40
1.900314670138888
  1
電源
 41
0.7
 11
18.306390422084039
 21
232.8347313324374
 31
0.0
 73
     3
  0
TEXT
  5
6A
  8
SPEC
 62
     7
 10
50.87005729865389
 20
230.9418668186876
 30
0.0
 40
1.900314670138888
  1
別売のAKGワイヤレスシステムのボディーパック型 送信機、
 41
0.7
 11
50.87005729865389
 21
232.8421814888265
 31
0.0
 73
     3
  0
TEXT
  5
6B
  8
SPEC
 62
     7
 10
18.1190511326744
 20
219.8357896885112
 30
0.0
 40
1.900314670138888
  1
コネクター
 41
0.7
 11
18.1190511326744
 21
221.7361043586501
 31
0.0
 73
     3
  0
TEXT
  5
6C
  8
SPEC
 62
     7
 10
50.461903791463413
 20
219.6250019904345
 30
0.0
 40
1.900314670138888
  1
ミニXLR3ピン メス
 41
0.7
 11
50.461903791463413
 21
221.5253166605734
 31
0.0
 73
     3
  0
LINE
  5
6D
  8
SPEC
  6
CONTINUOUS
 62
     7
 10
17.5
 20
226.25
 30
0.0
 11
165.0
 21
226.25
 31
0.0
  0
LINE
  5
6E
  8
SPEC
  6
CONTINUOUS
 62
     7
 10
17.5
 20
222.5
 30
0.0
 11
165.0
 21
222.5
 31
0.0
  0
LINE
  5
6F
  8
SPEC
  6
CONTINUOUS
 62
     7
 10
17.5
 20
218.75
 30
0.0
 11
165.0
 21
218.75
 31
0.0
  0
LINE
  5
70
  8
SPEC
  6
CONTINUOUS
 62
     7
 10
17.5
 20
215.0
 30
0.0
 11
165.0
 21
215.0
 31
0.0
  0
TEXT
  5
71
  8
SPEC
 62
     7
 10
18.357983247632689
 20
253.45720907566329
 30
0.0
 40
1.900314670138888
  1
指向特性
 41
0.7
 11
18.357983247632689
 21
255.35752374580221
 31
0.0
 73
     3
  0
TEXT
  5
72
  8
SPEC
 62
     7
 10
50.8269993109935
 20
253.47259185705951
 30
0.0
 40
1.900314670138888
  1
無指向性
 41
0.7
 11
50.8269993109935
 21
255.37290652719841
 31
0.0
 73
     3
  0
TEXT
  5
73
  8
SPEC
 62
     7
 10
18.29351521389173
 20
223.5857896885112
 30
0.0
 40
1.900314670138888
  1
ケーブル長
 41
0.7
 11
18.29351521389173
 21
225.4861043586501
 31
0.0
 73
     3
  0
TEXT
  5
74
  8
SPEC
 62
     7
 10
50.766799014388283
 20
223.3750019904345
 30
0.0
 40
1.900314670138888
  1
1460mm(マイク、コネクタ ー含む)
 41
0.7
 11
50.766799014388283
 21
225.2753166605734
 31
0.0
 73
     3
  0
LINE
  5
75
  8
SPEC
  6
CONTINUOUS
 62
     7
 10
17.5
 20
207.5
 30
0.0
 11
165.0
 21
207.5
 31
0.0
  0
TEXT
  5
76
  8
SPEC
 62
     7
 10
50.87005729865389
 20
227.3108509546731
 30
0.0
 40
1.900314670138888
  1
またはポータブルミニミキサー(B29L)に対応
 41
0.7
 11
50.87005729865389
 21
229.211165624812
 31
0.0
 73
     3
  0
LINE
  5
77
  8
SPEC
  6
CONTINUOUS
 62
     7
 10
17.5
 20
211.25
 30
0.0
 11
165.0
 21
211.25
 31
0.0
  0
TEXT
  5
78
  8
DIMNSIONS
 62
     7
 10
79.999999999999986
 20
22.269490000000012
 30
0.0
 40
2.4432617187500001
  1
(単位：mm)
 41
0.7
 11
79.999999999999986
 21
24.71275171875001
 31
0.0
 73
     3
  0
LINE
  5
79
  8
DIMNSIONS
  6
CONTINUOUS
 62
     7
 10
63.125269999999723
 20
84.625055000319179
 30
0.0
 11
63.125269999999723
 21
69.875
 31
0.0
  0
LINE
  5
7A
  8
DIMNSIONS
  6
CONTINUOUS
 62
     7
 10
63.125269999999723
 20
71.875
 30
0.0
 11
168.125
 21
71.875
 31
0.0
  0
LINE
  5
7B
  8
DIMNSIONS
  6
CONTINUOUS
 62
     7
 10
63.125269999999723
 20
71.875
 30
0.0
 11
65.625892558593463
 21
72.545039795150217
 31
0.0
  0
LINE
  5
7C
  8
DIMNSIONS
  6
CONTINUOUS
 62
     7
 10
63.125269999999723
 20
71.875
 30
0.0
 11
65.625892558593463
 21
71.204960204849769
 31
0.0
  0
TEXT
  5
7D
  8
DIMNSIONS
 62
     7
 10
130.15985722222209
 20
72.868888888888875
 30
0.0
 40
2.714735243055554
  1
1460
 41
0.7
 11
130.15985722222209
 21
75.583624131944433
 31
0.0
 73
     3
  0
LINE
  5
7E
  8
DIMNSIONS
  6
CONTINUOUS
 62
     7
 10
63.125269999999723
 20
84.625055000319179
 30
0.0
 11
63.125269999999723
 21
76.125
 31
0.0
  0
LINE
  5
7F
  8
DIMNSIONS
  6
CONTINUOUS
 62
     7
 10
98.624999999999986
 20
84.125055000319207
 30
0.0
 11
98.624999999999986
 21
76.125
 31
0.0
  0
LINE
  5
80
  8
DIMNSIONS
  6
CONTINUOUS
 62
     7
 10
63.125269999999723
 20
78.125
 30
0.0
 11
98.624999999999986
 21
78.125
 31
0.0
  0
LINE
  5
81
  8
DIMNSIONS
  6
CONTINUOUS
 62
     7
 10
63.125269999999723
 20
78.125
 30
0.0
 11
65.625892558593463
 21
78.795039795150217
 31
0.0
  0
LINE
  5
82
  8
DIMNSIONS
  6
CONTINUOUS
 62
     7
 10
63.125269999999723
 20
78.125
 30
0.0
 11
65.625892558593463
 21
77.454960204849741
 31
0.0
  0
LINE
  5
83
  8
DIMNSIONS
  6
CONTINUOUS
 62
     7
 10
98.624999999999986
 20
78.125
 30
0.0
 11
96.124377441406281
 21
77.454960204849741
 31
0.0
  0
LINE
  5
84
  8
DIMNSIONS
  6
CONTINUOUS
 62
     7
 10
98.624999999999986
 20
78.125
 30
0.0
 11
96.124377441406281
 21
78.795039795150217
 31
0.0
  0
TEXT
  5
85
  8
DIMNSIONS
 62
     7
 10
77.347357222222058
 20
79.118888888888904
 30
0.0
 40
2.714735243055554
  1
35.5
 41
0.7
 11
77.347357222222058
 21
81.833624131944461
 31
0.0
 73
     3
  0
LINE
  5
86
  8
DIMNSIONS
  6
CONTINUOUS
 62
     7
 10
62.5
 20
156.4043624952713
 30
0.0
 11
62.5
 21
170.75
 31
0.0
  0
LINE
  5
87
  8
DIMNSIONS
  6
CONTINUOUS
 62
     7
 10
62.5
 20
168.75
 30
0.0
 11
168.125
 21
168.75
 31
0.0
  0
LINE
  5
88
  8
DIMNSIONS
  6
CONTINUOUS
 62
     7
 10
62.5
 20
168.75
 30
0.0
 11
65.000622558593747
 21
169.42003979515019
 31
0.0
  0
LINE
  5
89
  8
DIMNSIONS
  6
CONTINUOUS
 62
     7
 10
62.5
 20
168.75
 30
0.0
 11
65.000622558593747
 21
168.07996020484961
 31
0.0
  0
LINE
  5
8A
  8
DIMNSIONS
  6
CONTINUOUS
 62
     7
 10
178.125
 20
81.875
 30
0.0
 11
178.125
 21
158.75
 31
0.0
  0
ARC
  5
8B
  8
DIMNSIONS
  6
CONTINUOUS
 62
     7
 10
168.125
 20
158.75
 30
0.0
 40
10.0
 50
0.0
 51
90.0
  0
ARC
  5
8C
  8
DIMNSIONS
  6
CONTINUOUS
 62
     7
 10
168.125
 20
81.875
 30
0.0
 40
10.0
 50
270.0
 51
0.0
  0
LINE
  5
8D
  8
DIMNSIONS
  6
CONTINUOUS
 62
     7
 10
62.5
 20
155.5
 30
0.0
 11
62.5
 21
164.5
 31
0.0
  0
LINE
  5
8E
  8
DIMNSIONS
  6
CONTINUOUS
 62
     7
 10
77.499999999999972
 20
153.42395347534639
 30
0.0
 11
77.499999999999972
 21
164.5
 31
0.0
  0
LINE
  5
8F
  8
DIMNSIONS
  6
CONTINUOUS
 62
     7
 10
62.5
 20
162.5
 30
0.0
 11
77.499999999999972
 21
162.5
 31
0.0
  0
LINE
  5
90
  8
DIMNSIONS
  6
CONTINUOUS
 62
     7
 10
62.5
 20
162.5
 30
0.0
 11
65.000622558593747
 21
163.17003979515019
 31
0.0
  0
LINE
  5
91
  8
DIMNSIONS
  6
CONTINUOUS
 62
     7
 10
62.5
 20
162.5
 30
0.0
 11
65.000622558593747
 21
161.82996020484961
 31
0.0
  0
LINE
  5
92
  8
DIMNSIONS
  6
CONTINUOUS
 62
     7
 10
77.499999999999972
 20
162.5
 30
0.0
 11
74.999377441406224
 21
161.82996020484961
 31
0.0
  0
LINE
  5
93
  8
DIMNSIONS
  6
CONTINUOUS
 62
     7
 10
77.499999999999972
 20
162.5
 30
0.0
 11
74.999377441406224
 21
163.17003979515019
 31
0.0
  0
TEXT
  5
94
  8
DIMNSIONS
 62
     7
 10
68.2361111111111
 20
163.49388888888879
 30
0.0
 40
2.714735243055554
  1
15
 41
0.7
 11
68.2361111111111
 21
166.20862413194439
 31
0.0
 73
     3
  0
LINE
  5
95
  8
DIMNSIONS
  6
CONTINUOUS
 62
     7
 10
35.771754384234541
 20
153.48217169794469
 30
0.0
 11
40.625
 21
165.625
 31
0.0
  0
LINE
  5
96
  8
DIMNSIONS
  6
CONTINUOUS
 62
     7
 10
35.771754384234541
 20
153.48217169794469
 30
0.0
 11
36.087254002347777
 21
156.0517098857527
 31
0.0
  0
LINE
  5
97
  8
DIMNSIONS
  6
CONTINUOUS
 62
     7
 10
35.771754384234541
 20
153.48217169794469
 30
0.0
 11
37.329754162308873
 21
155.54970723552401
 31
0.0
  0
LINE
  5
98
  8
DIMNSIONS
  6
CONTINUOUS
 62
     7
 10
40.625
 20
165.625
 30
0.0
 11
51.444444444444422
 21
165.625
 31
0.0
  0
TEXT
  5
99
  8
DIMNSIONS
 62
     7
 10
42.625
 20
166.61888888888879
 30
0.0
 40
2.714735243055554
  1
\U+03C67.5
 41
0.7
 11
42.625
 21
169.33362413194439
 31
0.0
 73
     3
  0
TEXT
  5
9A
  8
DATA
 62
     7
 10
150.0
 20
21.130890000000011
 30
0.0
 40
2.4432617187500001
  1
C417L
 41
0.7
 11
150.0
 21
23.574151718750009
 31
0.0
 73
     3
  0
TEXT
  5
9B
  8
DATA
 62
     7
 10
150.0
 20
28.380890000000011
 30
0.0
 40
2.4432617187500001
  1
AKG
 41
0.7
 11
150.0
 21
30.824151718750009
 31
0.0
 73
     3
  0
TEXT
  5
9C
  8
DATA
 62
     7
 10
147.4999999999998
 20
24.903933800000011
 30
0.0
 40
1.628843710937498
  1
ラベリア・マイクロホン
 41
0.7
 11
147.4999999999998
 21
26.53277751093751
 31
0.0
 73
     3
  0
TEXT
  5
9D
  8
DATA
 62
     7
 10
20.0
 20
14.238
 30
0.0
 40
1.6288411458333321
  1
仕様および外観は予告なく変更されることがありますので、ご了承ください。
 41
0.7
 11
20.0
 21
15.86684114583333
 31
0.0
 73
     3
  0
ARC
  5
9E
  8
DATA
  6
CONTINUOUS
 62
     7
 10
111.0514111444715
 20
152.37903867694411
 30
0.0
 40
4.4194173824158787
 50
315.00000000000063
 51
45.0
  0
ARC
  5
9F
  8
DATA
  6
CONTINUOUS
 62
     7
 10
117.3014111444714
 20
146.1290386769443
 30
0.0
 40
4.4194173824158787
 50
135.0000000000004
 51
225.00027502018139
  0
ARC
  5
A0
  8
DATA
  6
CONTINUOUS
 62
     7
 10
108.3942577675234
 20
152.37903867694411
 30
0.0
 40
4.419417382415884
 50
315.00000000000063
 51
44.99999999999995
  0
ARC
  5
A1
  8
DATA
  6
CONTINUOUS
 62
     7
 10
114.6442677675234
 20
146.1290386769443
 30
0.0
 40
4.4194244534893441
 50
135.000091673101
 51
225.00009167310009
  0
LINE
  5
A2
  8
DATA
  6
CONTINUOUS
 62
     7
 10
154.75
 20
148.99999999961909
 30
0.0
 11
113.94152556848751
 21
148.99999999961909
 31
0.0
  0
LINE
  5
A3
  8
DATA
  6
CONTINUOUS
 62
     7
 10
115.250161235444
 20
150.99999999961909
 30
0.0
 11
156.75
 21
150.99999999961909
 31
0.0
  0
LINE
  5
A4
  8
DATA
  6
CONTINUOUS
 62
     7
 10
112.5930078584958
 20
150.99999999961909
 30
0.0
 11
77.5
 21
150.99999999961909
 31
0.0
  0
LINE
  5
A5
  8
DATA
  6
CONTINUOUS
 62
     7
 10
111.28437289062551
 20
148.99999999961909
 30
0.0
 11
77.5
 21
148.99999999961909
 31
0.0
  0
CIRCLE
  5
A6
  8
DATA
  6
CONTINUOUS
 62
     7
 10
50.987038040736209
 20
91.021295000319085
 30
0.0
 40
0.599900000000048
  0
CIRCLE
  5
A7
  8
DATA
  6
CONTINUOUS
 62
     7
 10
48.987038040736209
 20
91.561822097296854
 30
0.0
 40
0.6000200000000575
  0
CIRCLE
  5
A8
  8
DATA
  6
CONTINUOUS
 62
     7
 10
52.987038040736209
 20
91.561822097296854
 30
0.0
 40
0.5999300000000574
  0
CIRCLE
  5
A9
  8
DATA
  6
CONTINUOUS
 62
     7
 10
50.987038040736209
 20
89.021295000319057
 30
0.0
 40
0.599900000000048
  0
LINE
  5
AA
  8
DATA
  6
CONTINUOUS
 62
     7
 10
49.987038040736202
 20
95.151185000319074
 30
0.0
 11
49.987038040736202
 21
94.375305000319116
 31
0.0
  0
LINE
  5
AB
  8
DATA
  6
CONTINUOUS
 62
     7
 10
51.987038040736209
 20
95.151185000319074
 30
0.0
 11
51.987038040736209
 21
94.375305000319116
 31
0.0
  0
LINE
  5
AC
  8
DATA
  6
CONTINUOUS
 62
     7
 10
48.821028040736181
 20
93.771295000319029
 30
0.0
 11
53.151918040736192
 21
93.771295000319029
 31
0.0
  0
ARC
  5
AD
  8
DATA
  6
CONTINUOUS
 62
     7
 10
50.987038040736209
 20
91.021295000319085
 30
0.0
 40
3.4999118674761349
 50
106.6019797549916
 51
73.398020245008325
  0
ARC
  5
AE
  8
DATA
  6
CONTINUOUS
 62
     7
 10
50.987038040736209
 20
91.021295000319085
 30
0.0
 40
4.2492342147850763
 50
103.61146039991699
 51
76.401326097578902
  0
LINE
  5
AF
  8
DATA
  6
CONTINUOUS
 62
     7
 10
49.316038040736281
 20
94.096285000319114
 30
0.0
 11
52.656938040736179
 21
94.096285000319114
 31
0.0
  0
LINE
  5
B0
  8
DATA
  6
CONTINUOUS
 62
     7
 10
50.086938040736321
 20
95.7712950003191
 30
0.0
 11
51.886908040736301
 21
95.7712950003191
 31
0.0
  0
LINE
  5
B1
  8
DATA
  6
CONTINUOUS
 62
     7
 10
51.886908040736301
 20
95.7712950003191
 30
0.0
 11
51.886908040736301
 21
94.210185000319115
 31
0.0
  0
LINE
  5
B2
  8
DATA
  6
CONTINUOUS
 62
     7
 10
51.886908040736301
 20
94.210185000319115
 30
0.0
 11
50.086938040736321
 21
94.210185000319115
 31
0.0
  0
LINE
  5
B3
  8
DATA
  6
CONTINUOUS
 62
     7
 10
50.086938040736321
 20
94.210185000319115
 30
0.0
 11
50.086938040736321
 21
95.7712950003191
 31
0.0
  0
CIRCLE
  5
B4
  8
DATA
  6
CONTINUOUS
 62
     7
 10
50.987038040736209
 20
91.021295000319085
 30
0.0
 40
5.2499100000000283
  0
LINE
  5
B5
  8
DATA
  6
CONTINUOUS
 62
     7
 10
49.487038040736209
 20
96.052185000319085
 30
0.0
 11
49.487038040736209
 21
96.842305000319101
 31
0.0
  0
LINE
  5
B6
  8
DATA
  6
CONTINUOUS
 62
     7
 10
52.487038040736202
 20
96.842305000319101
 30
0.0
 11
52.487038040736202
 21
96.052185000319085
 31
0.0
  0
ARC
  5
B7
  8
DATA
  6
CONTINUOUS
 62
     7
 10
50.987038040736209
 20
96.095305000319087
 30
0.0
 40
1.6757114906809041
 50
26.47330461095763
 51
153.5266953890424
  0
CIRCLE
  5
B8
  8
DATA
  6
CONTINUOUS
 62
     7
 10
50.987038040736209
 20
91.021295000319085
 30
0.0
 40
5.2499100000000283
  0
LINE
  5
B9
  8
DATA
  6
CONTINUOUS
 62
     7
 10
98.624999999999986
 20
95.124945000319116
 30
0.0
 11
85.625079999999699
 21
95.874945000319116
 31
0.0
  0
LINE
  5
BA
  8
DATA
  6
CONTINUOUS
 62
     7
 10
98.624999999999986
 20
86.125055000319193
 30
0.0
 11
85.625079999999699
 21
85.375055000319207
 31
0.0
  0
LINE
  5
BB
  8
DATA
  6
CONTINUOUS
 62
     7
 10
98.624999999999986
 20
95.124945000319116
 30
0.0
 11
98.624999999999986
 21
86.125055000319193
 31
0.0
  0
LINE
  5
BC
  8
DATA
  6
CONTINUOUS
 62
     7
 10
85.625079999999699
 20
95.874945000319116
 30
0.0
 11
79.125029999999811
 21
95.874945000319116
 31
0.0
  0
LINE
  5
BD
  8
DATA
  6
CONTINUOUS
 62
     7
 10
85.625079999999699
 20
85.375055000319207
 30
0.0
 11
79.125029999999811
 21
85.375055000319207
 31
0.0
  0
LINE
  5
BE
  8
DATA
  6
CONTINUOUS
 62
     7
 10
79.125029999999811
 20
95.874945000319116
 30
0.0
 11
79.125029999999811
 21
85.375055000319207
 31
0.0
  0
LINE
  5
BF
  8
DATA
  6
CONTINUOUS
 62
     7
 10
79.125029999999811
 20
95.874945000319116
 30
0.0
 11
71.625249999999653
 21
95.874945000319116
 31
0.0
  0
LINE
  5
C0
  8
DATA
  6
CONTINUOUS
 62
     7
 10
71.625249999999653
 20
85.375055000319207
 30
0.0
 11
79.125029999999811
 21
85.375055000319207
 31
0.0
  0
LINE
  5
C1
  8
DATA
  6
CONTINUOUS
 62
     7
 10
71.625249999999653
 20
95.874945000319116
 30
0.0
 11
71.625249999999653
 21
85.375055000319207
 31
0.0
  0
LINE
  5
C2
  8
DATA
  6
CONTINUOUS
 62
     7
 10
71.625249999999653
 20
86.625055000319193
 30
0.0
 11
63.125269999999723
 21
86.625055000319193
 31
0.0
  0
LINE
  5
C3
  8
DATA
  6
CONTINUOUS
 62
     7
 10
63.125269999999723
 20
86.625055000319193
 30
0.0
 11
63.125269999999723
 21
94.624945000319116
 31
0.0
  0
LINE
  5
C4
  8
DATA
  6
CONTINUOUS
 62
     7
 10
79.0251099999997
 20
95.874945000319116
 30
0.0
 11
79.0251099999997
 21
85.375055000319207
 31
0.0
  0
LINE
  5
C5
  8
DATA
  6
CONTINUOUS
 62
     7
 10
63.625269999999659
 20
95.665065000319061
 30
0.0
 11
63.625269999999659
 21
94.624945000319116
 31
0.0
  0
LINE
  5
C6
  8
DATA
  6
CONTINUOUS
 62
     7
 10
63.82514999999961
 20
94.624945000319116
 30
0.0
 11
63.82514999999961
 21
95.425135000319102
 31
0.0
  0
POLYLINE
  5
C7
  8
DATA
  6
CONTINUOUS
 62
     7
 66
     1
 10
0.0
 20
0.0
 30
0.0
 70
   129
  0
VERTEX
  5
2A4
  8
DATA
  6
CONTINUOUS
 62
     7
 10
68.150239999999769
 20
94.836035000319086
 30
0.0
  0
VERTEX
  5
2A5
  8
DATA
  6
CONTINUOUS
 62
     7
 10
68.148877253205853
 20
94.835617468968863
 30
0.0
  0
VERTEX
  5
2A6
  8
DATA
  6
CONTINUOUS
 62
     7
 10
68.148877253205569
 20
94.835617468968806
 30
0.0
 42
-0.0515215183436306
  0
VERTEX
  5
2A7
  8
DATA
  6
CONTINUOUS
 62
     7
 10
68.125139999999703
 20
94.830945000319076
 30
0.0
  0
SEQEND
  5
2A8
  8
DATA
  6
CONTINUOUS
 62
     7
  0
LINE
  5
CD
  8
DATA
  6
CONTINUOUS
 62
     7
 10
63.82514999999961
 20
95.425135000319102
 30
0.0
 11
68.101159999999652
 21
94.628975000319116
 31
0.0
  0
POLYLINE
  5
CE
  8
DATA
  6
CONTINUOUS
 62
     7
 66
     1
 10
0.0
 20
0.0
 30
0.0
 70
   129
  0
VERTEX
  5
2A9
  8
DATA
  6
CONTINUOUS
 62
     7
 10
68.150239999999769
 20
94.836035000319086
 30
0.0
  0
VERTEX
  5
2AA
  8
DATA
  6
CONTINUOUS
 62
     7
 10
68.148877253205853
 20
94.835617468968863
 30
0.0
  0
VERTEX
  5
2AB
  8
DATA
  6
CONTINUOUS
 62
     7
 10
68.148877253205569
 20
94.835617468968806
 30
0.0
 42
-0.0515215183436306
  0
VERTEX
  5
2AC
  8
DATA
  6
CONTINUOUS
 62
     7
 10
68.125139999999703
 20
94.830945000319076
 30
0.0
  0
SEQEND
  5
2AD
  8
DATA
  6
CONTINUOUS
 62
     7
  0
LINE
  5
D4
  8
DATA
  6
CONTINUOUS
 62
     7
 10
70.877149999999759
 20
95.202045000319075
 30
0.0
 11
71.024249999999768
 21
95.342045000319104
 31
0.0
  0
LINE
  5
D5
  8
DATA
  6
CONTINUOUS
 62
     7
 10
70.62653999999975
 20
95.634845000319075
 30
0.0
 11
71.024249999999768
 21
95.342045000319104
 31
0.0
  0
LINE
  5
D6
  8
DATA
  6
CONTINUOUS
 62
     7
 10
70.588959999999659
 20
95.413335000319094
 30
0.0
 11
70.877149999999759
 21
95.202045000319075
 31
0.0
  0
LINE
  5
D7
  8
DATA
  6
CONTINUOUS
 62
     7
 10
70.588959999999659
 20
95.413335000319094
 30
0.0
 11
68.149159999999654
 21
94.631975000319102
 31
0.0
  0
LINE
  5
D8
  8
DATA
  6
CONTINUOUS
 62
     7
 10
68.150239999999769
 20
94.836035000319086
 30
0.0
 11
70.62653999999975
 21
95.634845000319075
 31
0.0
  0
LINE
  5
D9
  8
DATA
  6
CONTINUOUS
 62
     7
 10
68.101159999999652
 20
94.833045000319103
 30
0.0
 11
63.625269999999659
 21
95.665065000319061
 31
0.0
  0
POLYLINE
  5
DA
  8
DATA
  6
CONTINUOUS
 62
     7
 66
     1
 10
0.0
 20
0.0
 30
0.0
 70
   129
  0
VERTEX
  5
2AE
  8
DATA
  6
CONTINUOUS
 62
     7
 10
68.150239999999769
 20
94.836035000319086
 30
0.0
  0
VERTEX
  5
2AF
  8
DATA
  6
CONTINUOUS
 62
     7
 10
68.148877253205853
 20
94.835617468968863
 30
0.0
  0
VERTEX
  5
2B0
  8
DATA
  6
CONTINUOUS
 62
     7
 10
68.148877253205569
 20
94.835617468968806
 30
0.0
 42
-0.0515215183436306
  0
VERTEX
  5
2B1
  8
DATA
  6
CONTINUOUS
 62
     7
 10
68.125139999999703
 20
94.830945000319076
 30
0.0
  0
SEQEND
  5
2B2
  8
DATA
  6
CONTINUOUS
 62
     7
  0
LINE
  5
E0
  8
DATA
  6
CONTINUOUS
 62
     7
 10
71.125229999999661
 20
93.124945000319059
 30
0.0
 11
68.62517999999973
 21
93.124945000319059
 31
0.0
  0
LINE
  5
E1
  8
DATA
  6
CONTINUOUS
 62
     7
 10
71.125229999999661
 20
93.124945000319059
 30
0.0
 11
71.125229999999661
 21
94.624945000319116
 31
0.0
  0
LINE
  5
E2
  8
DATA
  6
CONTINUOUS
 62
     7
 10
68.62517999999973
 20
93.124945000319059
 30
0.0
 11
68.62517999999973
 21
94.624945000319116
 31
0.0
  0
LINE
  5
E3
  8
DATA
  6
CONTINUOUS
 62
     7
 10
71.125229999999661
 20
94.624945000319116
 30
0.0
 11
71.625249999999653
 21
94.624945000319116
 31
0.0
  0
LINE
  5
E4
  8
DATA
  6
CONTINUOUS
 62
     7
 10
68.62517999999973
 20
94.624945000319116
 30
0.0
 11
63.125269999999723
 21
94.624945000319116
 31
0.0
  0
LINE
  5
E5
  8
DATA
  6
CONTINUOUS
 62
     7
 10
68.640249999999753
 20
94.615955000319104
 30
0.0
 11
70.293139999999653
 21
94.615955000319104
 31
0.0
  0
LINE
  5
E6
  8
DATA
  6
CONTINUOUS
 62
     7
 10
70.293139999999653
 20
94.615955000319104
 30
0.0
 11
70.293139999999653
 21
94.967955000319066
 31
0.0
  0
LINE
  5
E7
  8
DATA
  6
CONTINUOUS
 62
     7
 10
70.293139999999653
 20
94.967955000319066
 30
0.0
 11
68.62517999999973
 21
94.624945000319116
 31
0.0
  0
LINE
  5
E8
  8
DATA
  6
CONTINUOUS
 62
     7
 10
85.625079999999699
 20
91.074945000319104
 30
0.0
 11
91.624959999999845
 21
90.62496500031915
 31
0.0
  0
LINE
  5
E9
  8
DATA
  6
CONTINUOUS
 62
     7
 10
85.625079999999699
 20
90.175045000319116
 30
0.0
 11
91.624959999999845
 21
90.62496500031915
 31
0.0
  0
LINE
  5
EA
  8
DATA
  6
CONTINUOUS
 62
     7
 10
85.625079999999699
 20
90.175045000319116
 30
0.0
 11
85.625079999999699
 21
91.074945000319104
 31
0.0
  0
LINE
  5
EB
  8
DATA
  6
CONTINUOUS
 62
     7
 10
85.625079999999699
 20
95.074945000319104
 30
0.0
 11
91.624959999999845
 21
94.624945000319116
 31
0.0
  0
LINE
  5
EC
  8
DATA
  6
CONTINUOUS
 62
     7
 10
85.625079999999699
 20
94.175045000319102
 30
0.0
 11
91.624959999999845
 21
94.624945000319116
 31
0.0
  0
LINE
  5
ED
  8
DATA
  6
CONTINUOUS
 62
     7
 10
85.625079999999699
 20
95.074945000319104
 30
0.0
 11
85.625079999999699
 21
94.175045000319102
 31
0.0
  0
LINE
  5
EE
  8
DATA
  6
CONTINUOUS
 62
     7
 10
85.625079999999699
 20
93.074945000319104
 30
0.0
 11
91.624959999999845
 21
92.624945000319045
 31
0.0
  0
LINE
  5
EF
  8
DATA
  6
CONTINUOUS
 62
     7
 10
85.625079999999699
 20
92.175045000319102
 30
0.0
 11
91.624959999999845
 21
92.624945000319045
 31
0.0
  0
LINE
  5
F0
  8
DATA
  6
CONTINUOUS
 62
     7
 10
85.625079999999699
 20
93.074945000319104
 30
0.0
 11
85.625079999999699
 21
92.175045000319102
 31
0.0
  0
LINE
  5
F1
  8
DATA
  6
CONTINUOUS
 62
     7
 10
85.625079999999699
 20
89.074945000319175
 30
0.0
 11
91.624959999999845
 21
88.625055000319193
 31
0.0
  0
LINE
  5
F2
  8
DATA
  6
CONTINUOUS
 62
     7
 10
85.625079999999699
 20
88.175045000319173
 30
0.0
 11
91.624959999999845
 21
88.625055000319193
 31
0.0
  0
LINE
  5
F3
  8
DATA
  6
CONTINUOUS
 62
     7
 10
85.625079999999699
 20
89.074945000319175
 30
0.0
 11
85.625079999999699
 21
88.175045000319173
 31
0.0
  0
LINE
  5
F4
  8
DATA
  6
CONTINUOUS
 62
     7
 10
85.625079999999699
 20
87.074945000319175
 30
0.0
 11
91.624959999999845
 21
86.625055000319193
 31
0.0
  0
LINE
  5
F5
  8
DATA
  6
CONTINUOUS
 62
     7
 10
85.625079999999699
 20
86.175065000319094
 30
0.0
 11
91.624959999999845
 21
86.625055000319193
 31
0.0
  0
LINE
  5
F6
  8
DATA
  6
CONTINUOUS
 62
     7
 10
85.625079999999699
 20
87.074945000319175
 30
0.0
 11
85.625079999999699
 21
86.175065000319094
 31
0.0
  0
ARC
  5
F7
  8
DATA
  6
CONTINUOUS
 62
     7
 10
75.157159999999806
 20
95.699005000319076
 30
0.0
 40
1.6756891300297621
 50
26.472998543926789
 51
153.52669661332271
  0
LINE
  5
F8
  8
DATA
  6
CONTINUOUS
 62
     7
 10
76.657169999999809
 20
96.445995000319087
 30
0.0
 11
76.657169999999809
 21
95.874945000319116
 31
0.0
  0
LINE
  5
F9
  8
DATA
  6
CONTINUOUS
 62
     7
 10
73.657179999999812
 20
96.445995000319087
 30
0.0
 11
73.657179999999812
 21
95.874945000319116
 31
0.0
  0
LINE
  5
FA
  8
DATA
  6
CONTINUOUS
 62
     7
 10
115.625
 20
92.625000000319105
 30
0.0
 11
115.625
 21
88.625000000319119
 31
0.0
  0
LINE
  5
FB
  8
DATA
  6
CONTINUOUS
 62
     7
 10
98.624999999999986
 20
93.125000000319119
 30
0.0
 11
115.625
 21
92.625000000319105
 31
0.0
  0
LINE
  5
FC
  8
DATA
  6
CONTINUOUS
 62
     7
 10
98.624999999999986
 20
88.125000000319133
 30
0.0
 11
115.625
 21
88.625000000319119
 31
0.0
  0
LINE
  5
FD
  8
DATA
  6
CONTINUOUS
 62
     7
 10
166.75
 20
140.99999999961921
 30
0.0
 11
166.75
 21
99.625000000319119
 31
0.0
  0
LINE
  5
FE
  8
DATA
  6
CONTINUOUS
 62
     7
 10
164.75
 20
138.99999999961921
 30
0.0
 11
164.75
 21
101.6250000003191
 31
0.0
  0
LINE
  5
FF
  8
DATA
  6
CONTINUOUS
 62
     7
 10
156.75
 20
89.625000000319133
 30
0.0
 11
115.625
 21
89.625000000319133
 31
0.0
  0
LINE
  5
100
  8
DATA
  6
CONTINUOUS
 62
     7
 10
115.625
 20
91.625000000319105
 30
0.0
 11
154.75
 21
91.625000000319105
 31
0.0
  0
TEXT
  5
101
  8
DATA
 62
     7
 10
58.460503325164339
 20
132.4847050239681
 30
0.0
 40
2.714735243055554
  1
ウインドスクリーン
 41
0.7
 11
58.460503325164339
 21
135.1994402670237
 31
0.0
 73
     3
  0
ARC
  5
102
  8
DATA
  6
CONTINUOUS
 62
     7
 10
154.75
 20
138.99999999961921
 30
0.0
 40
10.0
 50
0.0
 51
90.0
  0
ARC
  5
103
  8
DATA
  6
CONTINUOUS
 62
     7
 10
156.75
 20
140.99999999961921
 30
0.0
 40
10.0
 50
0.0
 51
90.0
  0
ARC
  5
104
  8
DATA
  6
CONTINUOUS
 62
     7
 10
154.75
 20
101.6250000003191
 30
0.0
 40
10.0
 50
270.0
 51
0.0
  0
ARC
  5
105
  8
DATA
  6
CONTINUOUS
 62
     7
 10
156.75
 20
99.625000000319119
 30
0.0
 40
10.0
 50
270.0
 51
0.0
  0
LINE
  5
106
  8
DATA
  6
CONTINUOUS
 62
     7
 10
53.125
 20
131.25
 30
0.0
 11
93.75
 21
131.25
 31
0.0
  0
LINE
  5
107
  8
DATA
  6
CONTINUOUS
 62
     7
 10
62.5
 20
146.5
 30
0.0
 11
62.5
 21
153.5
 31
0.0
  0
LINE
  5
108
  8
DATA
  6
CONTINUOUS
 62
     7
 10
69.299999999999983
 20
153.5
 30
0.0
 11
69.299999999999983
 21
146.5
 31
0.0
  0
LINE
  5
109
  8
DATA
  6
CONTINUOUS
 62
     7
 10
66.299999999999983
 20
153.75
 30
0.0
 11
66.299999999999983
 21
146.25
 31
0.0
  0
ARC
  5
10A
  8
DATA
  6
CONTINUOUS
 62
     7
 10
81.912034739454427
 20
186.08294044665141
 30
0.0
 40
34.938680977095252
 50
248.83983578557809
 51
262.74535602531972
  0
ARC
  5
10B
  8
DATA
  6
CONTINUOUS
 62
     7
 10
81.912034739454427
 20
113.91705955334859
 30
0.0
 40
34.938680977095252
 50
97.254643974679155
 51
111.1601642144219
  0
LINE
  5
10C
  8
DATA
  6
CONTINUOUS
 62
     7
 10
33.07373412332349
 20
152.0133726578631
 30
0.0
 11
33.40079309706708
 21
151.6863136841194
 31
0.0
  0
LINE
  5
10D
  8
DATA
  6
CONTINUOUS
 62
     7
 10
36.06631368411945
 20
149.0207930970671
 30
0.0
 11
36.393372657863061
 21
148.6937341233234
 31
0.0
  0
LINE
  5
10E
  8
DATA
  6
CONTINUOUS
 62
     7
 10
35.686265876676508
 20
147.98662734213701
 30
0.0
 11
35.359206902932897
 21
148.3136863158804
 31
0.0
  0
LINE
  5
10F
  8
DATA
  6
CONTINUOUS
 62
     7
 10
32.693686315880527
 20
150.9792069029329
 30
0.0
 11
32.36662734213693
 21
151.30626587667641
 31
0.0
  0
LINE
  5
110
  8
DATA
  6
CONTINUOUS
 62
     7
 10
32.366627342136908
 20
148.6937341233234
 30
0.0
 11
32.693686315880569
 21
149.0207930970671
 31
0.0
  0
LINE
  5
111
  8
DATA
  6
CONTINUOUS
 62
     7
 10
35.359206902932883
 20
151.6863136841194
 30
0.0
 11
35.686265876676551
 21
152.0133726578631
 31
0.0
  0
LINE
  5
112
  8
DATA
  6
CONTINUOUS
 62
     7
 10
36.393372657863111
 20
151.30626587667641
 30
0.0
 11
36.066313684119443
 21
150.9792069029329
 31
0.0
  0
LINE
  5
113
  8
DATA
  6
CONTINUOUS
 62
     7
 10
33.400793097067108
 20
148.3136863158804
 30
0.0
 11
33.073734123323462
 21
147.9866273421369
 31
0.0
  0
CIRCLE
  5
114
  8
DATA
  6
CONTINUOUS
 62
     7
 10
34.38000000000001
 20
150.0
 30
0.0
 40
1.9500000000000031
  0
ARC
  5
115
  8
DATA
  6
CONTINUOUS
 62
     7
 10
34.38000000000001
 20
150.0
 30
0.0
 40
2.4000000000000141
 50
147.02469918056539
 51
212.97530081943501
  0
ARC
  5
116
  8
DATA
  6
CONTINUOUS
 62
     7
 10
34.38000000000001
 20
150.0
 30
0.0
 40
2.400000000000011
 50
237.02469918056451
 51
302.97530081943449
  0
ARC
  5
117
  8
DATA
  6
CONTINUOUS
 62
     7
 10
34.38000000000001
 20
150.0
 30
0.0
 40
2.400000000000023
 50
327.02469918056528
 51
32.97530081943529
  0
ARC
  5
118
  8
DATA
  6
CONTINUOUS
 62
     7
 10
34.38000000000001
 20
150.0
 30
0.0
 40
2.4000000000000301
 50
57.024699180564788
 51
122.9753008194339
  0
TEXT
  5
119
  8
DATA
 62
     7
 10
33.607804224142441
 20
150.34755821838169
 30
0.0
 40
0.8144205729166667
  1
AKG
 41
0.7
 11
33.607804224142441
 21
151.1619787912984
 31
0.0
 73
     3
  0
TEXT
  5
11A
  8
DATA
 62
     7
 10
33.082037097669392
 20
149.05955906598581
 30
0.0
 40
0.8144205729166667
  1
C417L
 41
0.7
 11
33.082037097669392
 21
149.87397963890251
 31
0.0
 73
     3
  0
CIRCLE
  5
11B
  8
DATA
  6
STYLE_01
 62
     7
 10
34.38000000000001
 20
150.0
 30
0.0
 40
8.0000000000000071
  0
LINE
  5
11C
  8
DATA
  6
CONTINUOUS
 62
     7
 10
53.125
 20
131.25
 30
0.0
 11
39.450000000000003
 21
143.81169651681489
 31
0.0
  0
LINE
  5
11D
  8
DATA
  6
CONTINUOUS
 62
     7
 10
39.450000000000003
 20
143.81169651681489
 30
0.0
 11
42.378740113685978
 21
142.3194288939367
 31
0.0
  0
LINE
  5
11E
  8
DATA
  6
CONTINUOUS
 62
     7
 10
39.450000000000003
 20
143.81169651681489
 30
0.0
 11
41.240229528095462
 21
141.0549847893144
 31
0.0
  0
LINE
  5
11F
  8
DATA
  6
CONTINUOUS
 62
     7
 10
53.125
 20
131.25
 30
0.0
 11
59.350000000000001
 21
143.24340607722161
 31
0.0
  0
LINE
  5
120
  8
DATA
  6
CONTINUOUS
 62
     7
 10
59.350000000000001
 20
143.24340607722161
 30
0.0
 11
58.666593882904607
 21
140.02823308173271
 31
0.0
  0
LINE
  5
121
  8
DATA
  6
CONTINUOUS
 62
     7
 10
59.350000000000001
 20
143.24340607722161
 30
0.0
 11
57.150566443749291
 21
140.80068764411419
 31
0.0
  0
LINE
  5
122
  8
DATA
  6
CONTINUOUS
 62
     7
 10
77.5
 20
148.57604652465341
 30
0.0
 11
77.5
 21
151.42395347534639
 31
0.0
  0
LINE
  5
123
  8
DATA
  6
STYLE_01
 62
     7
 10
71.554921025637995
 20
155.1156662648641
 30
0.0
 11
71.554921025637995
 21
144.8843337351359
 31
0.0
  0
ARC
  5
124
  8
DATA
  6
STYLE_01
 62
     7
 10
63.633507740470819
 20
150.0
 30
0.0
 40
7.9999999999999929
 50
90.0
 51
269.99999999999989
  0
ARC
  5
125
  8
DATA
  6
STYLE_01
 62
     7
 10
62.289877445061151
 20
141.99022447543899
 30
0.0
 40
16.066059091064481
 50
54.78233172640315
 51
85.202658624528155
  0
ARC
  5
126
  8
DATA
  6
STYLE_01
 62
     7
 10
62.289877445061151
 20
158.00977552456101
 30
0.0
 40
16.066059091064481
 50
274.79734137547189
 51
305.21766827359278
  0
CIRCLE
  5
127
  8
DATA
  6
CONTINUOUS
 62
     7
 10
34.38000000000001
 20
150.0
 30
0.0
 40
3.500000000000008
  0
CIRCLE
  5
128
  8
DATA
  6
CONTINUOUS
 62
     7
 10
34.38000000000001
 20
150.0
 30
0.0
 40
3.75
  0
ARC
  5
129
  8
DATA
  6
CONTINUOUS
 62
     7
 10
65.900000000000006
 20
130.8250000000001
 30
0.0
 40
22.92848937457493
 50
81.472323444368058
 51
98.527676555631942
  0
ARC
  5
12A
  8
DATA
  6
CONTINUOUS
 62
     7
 10
65.900000000000006
 20
169.17500000000001
 30
0.0
 40
22.92848937457504
 50
261.4723234443681
 51
278.5276765556319
  0
ENDSEC
  0
EOF
